Non l’hai mica capito Vasco Rossi Testo e accordi per chitarra

Non l’hai mica capito Vasco Rossi Testo e accordi per chitarra

e|2-0---3333---2-0----2222-2--0---
B|----3-3333-------3--3333-------3
G|--------------------2222--------
D|--------------------0000--------
A|------2222----------------------
E|------3333----------------------
e|-00000-2-2-2-0-----2222---------|
B|-22332---------2---3333---------|
G|-22222-------------2222---------|
D|-22222-------------0000---------|
A|-00000--------------------------|
E|--------------------------------|
sol
Scusa non ho capito vuoi ripetere,
re
che cosa avevi da fare
la
di tanto importante da non potere
re
proprio proprio rimandare
sol
Non mi dire, ti prego,
non mi dire che dovevi solo
re
Studiare e ti sembra
la
un buon motivo, questo, per
re
non farti neanche sentire!
sol
si ti ho capito, t'interessa più la scuola
re
e poi del resto chissà come sei brava
mi7
ma scusa, tra i vari interessi che hai dimmi
la sol
che posto mi dai! Ti voglio bene non l'hai
mica capito
re sol re
ti voglio bene lascia stare il vestito
la
ti voglio bene non cambiare discorso dai non
re la re re7 sol
scherzare! Ti voglio bene smetti di giocare
re sol re
ti voglio bene a un certo punto ti devi dare
la re
ti voglio bene non puoi farti eternamente
la re
corteggiare!
sol
Scusa cosa me ne frega del vestito
re
che hai mi piaci come sei
la
non mi devi trattare come tutti quei
re
maschietti che ogni tanto ti fai,
sol
chissà che cosa pagherei per poter vedere
re
dentro quella testa cos'hai
la
se mi stai prendendo in giro guarda che ti
re
giuro, non ti perdonerei!
sol
Ti voglio bene non capisci niente
re
Ti voglio bene bene un accidente
la sol
Ti voglio bene nonostante tutto .... ti voglio
(Ti voglio bene oh! Ti voglio bene oh! Ti voglio
bene oh!)

Post a Comment