Dedicato A Te Le Vibrazioni Testo e accordi per chitarra

Dedicato A Te Le Vibrazioni Testo e accordi per chitarra

Dedicato a te è una canzone del gruppo di musica leggera milanese Le Vibrazioni, scritta da Francesco Sarcina. Con questo brano la band si fa conoscere al grande pubblico nella primavera del 2003.
La canzone è melodica ed orecchiabile, ed è stata il singolo più venduto in Italia nel marzo del 2003.
Il pezzo fa da traino anche per il primo album del complesso, intitolato Le Vibrazioni, che consacra i quattro come novità e rivelazione di quell’anno.

INTRO
Lam7+ Lam7 Lam6+,
-------0---------------0---------------0--------------0--------
-----1---1---1-------1---1---1-------1---1---1------1---1---1--
---2-------2-------1-------1-------0-------0-------------------
--------------------------------------------------4-------4----
---------------------------------------------------------------
---------------------------------------------------------------
Rem Mi
-------1---0---1-----------------0-----
-----3---3---3---------3-----0---------
---------------------2---1-----1-------
---0-----------------------0-----------
---------------------------------------
---------------------------------------

Lam Lam7+ Lam7
Sai certe volte accade che
Lam6 Rem Mi
ci sia bisogno di andar via e lasciare tutto al fato

Lam Lam7+ Lam7
Fare come un equilibrista
Lam6 Rem Mi
che sul mondo sfida il crollo delle sue capacità

Do Sol/Si Lam Sol Fa
Ma questo è dedicato a te alla tua lucente armonia
Sol Do
sei immensamente Giulia
Sol/Si Lam Sol Fa
Il tuo nome è come musica mi riempie e non mi stanca mai
Mi
dedicato solo a te

Intro due volte Giulia

Lam Lam7+ Lam7
Ma chiudi gli occhi e aspetta che
Lam6 Rem Mi
arrivi la mia bocca ad allietarti chissà dove chissà come

Lam Lam7+ Lam7
Vorrei fermare il tempo per
Lam6 Rem Mi
godere delle tue fantasie e ascoltare senza interruzioni

Do Sol/Si Lam Sol Fa
Ma questo è dedicato a te alla tua lucente armonia
Sol Do
sei immensamente Giulia
Sol/Si Lam Sol Fa
Il tuo nome è come musica mi riempie e non mi stanca mai
Mi
dedicato solo a te

Intro due volte

Rem Sol Do Sol/Si Lam
Respira piano e ascolta che, questo è dedicato a te
Sol Fa Sol Do
alla tua lucente armonia sei immensamente Giulia
Sol/Si Lam Sol Fa
Il tuo nome è come musica mi riempie e non mi stanca mai
Sol Do Do Sol/Si Lam Sol Fa
sei im mensamente Giulia
Sol Do
sei im mensamente Giulia
Sol/Si Lam Sol Fa
Il tuo nome è come musica mi riempie e non mi stanca mai
Mi
dedicato solo a te

INTRO x2

Post a Comment