Un’ avventura Lucio Battisti Testo e accordi per chitarra

Un’ avventura Lucio Battisti Testo e accordi per chitarra


e|-------------------------------
B|-1-2-4---2-1------2-1-----4^6^4
G|-------------3-1------3--------
D|------------------------1------
A|-------------------------------
E|-------------------------------
e|-------------------------------
B|-1-2-4---2-1------2-1----------
G|-------------3-1------3-3------
D|-------------------------------
A|-------------------------------
E|-------------------------------
sol# do# sol#
Non sarà, un avventura
do- re#-
Non può essere soltanto una primavera
la#- re#
Questo amore non è una stella
do# re#
Che al mattino se ne va
do# re#
Oh no no no no no no
sol# do# sol#
Non sarà, un avventura
do- re#-
Questo amore è fatto solo di poesia
la#- re#
Tu sei mia Tu sei mia
do# re#
Fino a quando gli occhi miei
do# re# sol#
Avran luce per guardare gli occhi tuoi
sol# do-
Innamorato sempre di più
do# sol# re#
In fondo all'anima per sempre tu
sol#
Perché non è una promessa
do-
Ma è quel che sarà
do#
Domani e sempre
sol# re#
Sempre vivrà Sempre vivrà
sol# re#
Sempre vivrà Sempre vivrà
Non sarà un'avventura
Non è un fuoco che col vento può morire
Ma vivrà quanto il mondo
Fino a quando gli occhi miei
Avran luce per guardare gli occhi tuoi
Innamorato sempre di più
In fondo all'anima per sempre tu
Perché non è una promessa
Ma è quel che sarà
Domani e sempre
Sempre vivrà
Perché io sono innamorato
Sempre di più
In fondo all'anima ci sei per sempre tu …..

No Comments

Post A Comment