Dammi Solo Un Minuto Pooh Testo e Accordi per chitarra

Dammi Solo Un Minuto Pooh Testo e Accordi per chitarra

FA REm SIb DO FA
E -----6-5--------6-5---------------
B -6-8-----8--6-8-----8--6-6-8-8-10-
G ----------------------------------
D ----------------------------------
A ----------------------------------
E ----------------------------------

FA
-13-10-----------------------------------------6-5---
-------13-10-------------------------------6-8-----8-
-------------12----------10--------------------------
----------------10-12-10----12-10--------------------
----------------------------------12-10-8------------
-----------------------------------------------------

REm SIb DO FA Sib LA REm DO
E -----6-5------------5---------------------------6-
B -6-8-----8--6-6-8-8------6--4------------6-5--8---
G -----------------------5------7-6--7---7----------
D -------------------------------------7------------
A --------------------------------------------------
E --------------------------------------------------

FA LA7 REm
Lo so, so tutto non parlare più
SIbm FA
lo so che forse è meglio
LA7 REm
ma crederci non voglio
REm7 SOL
non c'ero preparato
SIb DO DO7
ci vuole fiato a dirti.
FA LA7 REm
Addio, c'è fumo e odore caldo qui
SIbm FA
di dolci e di caffè
LA7 REm
ognuno pensa a sè
REm7 SOL
è il giorno più normale
SIb DO DO7
ma io sto male, male.
FA REm
Dammi solo un minuto
SIb DO FA
un soffio di fiato un attimo ancora
REm
stare insieme è finito
SIb DO FA
abbiamo capito ma dirselo è dura
SIb LA7 REm DO DO7
è stato un bel tempo il mio tempo con te.

FA REm
Dammi solo un minuto
SIb DO FA
un soffio di fiato un attimo ancora
REm
noi tranquilli e lontani
SIb DO FA
ognuno per sè piangeremo domani
SIb LA7 REm DO DO7
ma che coraggio che hai come fai?

FA LA7 REm
E poi, ti guardo in fondo cosa sei
SIbm FA
un fuoco presto spento
LA7 REm
se tira un pò di vento
REm7 SOL
un gioco senza impegno
SIb DO DO7
ma lasci il segno tu.

FA REm
Dammi solo un minuto
SIb DO FA
un soffio di fiato un attimo ancora
REm
stare insieme è finito
SIb DO FA
abbiamo capito ma dirselo è dura
SIb LA7 REm DO DO7
svegliati svegliami dai cosa fai?

FA LA7 REm
Ma è vero che sta tremando il tuo respiro
SIb
ma si che è proprio vero.

FA REm SIb DO FA
Come mai i tuoi occhi ora stanno piangendo
REm SIb DO RE
dimmi che era un sogno e ci stiamo svegliando.
SOL MIm DO RE SOL
Come mai i tuoi occhi ora stanno piangendo
MIm DO RE SOL
dimmi che era un sogno e ci stiamo svegliando.

Post a Comment