Buoni o cattivi Vasco Rossi Testo e accordi per chitarra

Buoni o cattivi Vasco Rossi Testo e accordi per chitarra

INTRO
--------------------------------------------------------
----6-5----3--6-5-3-----6-5----3-3-3--------------------
--------5-------------------5---------2-3---------------
-5------------------5-5--------------------5------------
--------------------------------------------------------
-------------------------------------------------------- x2

Sol
Si può spegnere ogni tanto ogni pensiero
Do
Smettere almeno di crederci per davvero
Sol
E non essere più schiavi per dovere
Do
Di un'idea come di un'altra,di un mistero

Mim Fa Do
Sembra che non sia possibile dimenticarsi di sè
Mim Fa Do
E giudicandoci ognuno con gli altri convicerci che
Se non lo sai

------------
------------
------------
--------5---
--5-5-7-----
------------

Lam Fa Do Sol
Buoni o cattivi non è la fine
Lam Fa Do Sol
Prima c'è il giusto o sbagliato da sopportare
Sol
Da sopportare

-------------------------------------------
-------------------------------------------
-------------------------------------------
-------------------------------------------
-2/3-5--2/3-5--3-2-5-5--2/3-5--3-2-5-5-----
-------------------------------------------



Sol
Si può spegnere ogni tanto il cervello (Fa/Sol/Lam)
Do
Smettere almeno di usare solo quello (Fa/Sol/Lam)
Sol
Si può far finta che non ci sia niente (Fa/Sol/Lam)
Do
Anche quando ti tremano le gambe (Fa/Sol/Lam)

Mim Fa Do
Sembra che non sia possibile dimenticarsi di sè
Mim Fa Do
E giudicandoci ognuno con gli altri convicerci che
Se non lo sai

-----------
-----------
-----------
--------5--
--5-5-7----
-----------

Lam Fa Do Sol
Buoni o cattivi non è la fine
Lam Fa Do Sol
Prima c'è il giusto o sbagliato da sopportare
Sol
Da sopportare

Mib Fa
Che di per sè non è detto
Do (Sol/Do/Sol/Do)
Perchè divide
Mib Fa
Mentre qui tutto
Do (Sol/Do/Sol/Do/Sol)
Dovrebbe solo unire

RIFF INTRO
----------------------------------------------
----6-5----3--6-5-3-----6-5----3-3-3----------
--------5-------------------5---------2-3-----
-5------------------5-5--------------------5--
----------------------------------------------
----------------------------------------------

----------------------------16-15----
-8-8-10-12-12-12-10-8----------------
-------------------------------------
-------------------------------------
-------------------------------------
-------------------------------------

Do/Re/Do

Lam Fa Do Sol
Buoni o cattivi non è la fine
Lam Fa Do Sol
Prima c'è il giusto o sbagliato da sopportare
Sol
Da sopportare

RIFF
-------------------------------------------
-------------------------------------------
-------------------------------------------
-------------------------------------------
-2/3-5--2/3-5--3-2-5-5--2/3-5--3-2-5-5-----
------------------------------------------- x4

Sol
Si può spegnere ogni tanto ogni pensiero

Post a Comment