Alba chiara Vasco Rossi Testo e accordi per chitarra

Alba chiara Vasco Rossi Testo e accordi per chitarra

e|-----------------------0---------
B|-3----1----0--------013----0-----
G|------------0-----2-----0---0---
D|---------------------------------
A|-3--3---3--3---------------------
E|-----------------------3---------
e|---------------------------------
B|---------0-0-0-0-1-1-1-1-3-3-3-3-
G|-2-2-2-2-0-0-0-0-2-2-2-2-4-4-4-4-
D|-3-3-3-3-------------------------
A|---------------------------------
E|---------------------------------
e|-------------------------0-0-0-0-
B|-0-0-0-0-1-1-1-1-3-3-3-3-1-1-1-1-
G|-0-0-0-0-2-2-2-2-4-4-4-4---------
D|---------------------------------
A|---------------------------------
E|---------------------------------
do sol
Respiri piano per non far rumore
la- miti
addormenti di sera e ti risvegli col sole
Fa do
sei chiara come un' alba,
re sol7
sei fresca come l'aria
do sol
Diventi rossa se qualcuno ti guarda
la- do
sei fantastica quando sei assorta
Fa do re sol7
nei tuoi problemi, nei tuoi pensieri
Ti vesti svogliatamente, non metti mai niente
che possa attirare attenzione
un particolare, solo per farti guardare. (x 2 )
do sol la- do Fa do re sol7 re sol
E con la faccia pulita cammini per strada,
mangiando una mela, coi libri di scuola,
ti piace studiare
non te ne devi vergognare !
E qualche volta fai pensieri strani...
...con una mano, una mano ti sfiori.
Tu sola dentro la stanza
e tutto il mondo fuori !!!
do sol la- do Fa do re sol7 re sol

Post a Comment