Ahi Maria Rino Gaetano Testo e Accordi per chiatarra

Ahi Maria Rino Gaetano Testo e Accordi per chiatarra

DO FA E quando tramonta il sol SOL DO una canzone d’amor LAm REm da bahia salvator SOL7 DO oh Maria per te cantero’ e——0-1-3-1-0– B–1-3————DO FA SOL* DO* LAm* REm* SOL* DO* x2) DO DO SOL7 Da quanto sei andata via DO SOL7 da quanto non ci sei piu’ DO SOL7 DO da quando

DO

FA
E quando tramonta il sol
SOL DO
una canzone d'amor
LAm REm
da bahia salvator
SOL7 DO
oh Maria per te cantero'

e------0-1-3-1-0--
B--1-3------------DO FA SOL* DO* LAm* REm* SOL* DO*
x2)
DO

DO SOL7
Da quanto sei andata via
DO SOL7
da quanto non ci sei piu'
DO SOL7 DO
da quando la pasta scotta non la mangio piu'
SOL7 DO SOL7
ahi Maria chi mi manchi sei tu

La mattina mi alzo tardi
e dormo finche mi va
e il caffe me lo porta a letto poi dormi anche tu
DO DO
ahi Maria chi mi manca sei tu ...

FA
E quando tramonta il sol...
DO
una canzone d'amor
LAm REm
da bahia salvator
SOL DO DO7
per te cantero'
FA
na na na na na
SOL DO
na na na na na
LAm REm
na na na na na
SOL DO DO
ahi Maria portica sare' ...

La notte vado a ballare
per cancellare i sogni miei
da qualche tempo non piu' donne ne dee yei
ahi Maria ma tu non ci sei

E' questo sapore strano
che fatto di liberta
mi dice che oggi qualcosa e' cambiato in me
DO
ahi Maria maria tu sei qui' con me ...

E quando tramonta il sol
una canzone d'amor
da bahia salvator
per te cantero'
na na na na na
na na na na na
na na na na na
DO
ahi Maria portica sare' ...

(Nota diteggiatura: 5°tasto=indice 6°=medio 7°=anulare 8°-10°=mignolo))
DO FA SOL DO LAm REm SOL DO

e------------5-6-8--8----10--8-7-5-------5-7-8-7-5-----------------------
B------5-6-8------------------------8--8-----------8-5--6--6---8-6-5---5-
G--5-7---------------------------------------------------------------7---
D------------------------------------------------------------------------
A------------------------------------------------------------------------
E------------------------------------------------------------------------
DO FA SOL DO LAm REm

e------------5-6-8--8----10--8-7-5-------5-7-8-7-5-------------
B------5-6-8------------------------8--8-----------8-5--6--6---
G--5-7---------------------------------------------------------
D--------------------------------------------------------------
A--------------------------------------------------------------
E--------------------------------------------------------------
SOL DO DO
...
e-----5------------------------
B---8----8-6-5-----------------
G---------------7-5-5--5--5-5--
D------------------------------
A------------------------------
E------------------------------

L'imalaya era lontano
l'ascensore li non c'e'
ma il vecchio saggio indiano ha predetto che
ahi Maria ritorna da me

Se e'vero piu' soldi in tasca
e non era troppo ormai
sebbene toccare il fondo non posso piu'
DO
ahi Maria chi mi manca sei tu ...

E quando tramonta il sol
una canzone d'amor
da bahia salvator
per te cantero'
na na na na na
na na na na na
na na na na na
DO
ahi Maria portica sare' ...

DO SOL7
....
DO SOL7
C'era una donna a baia che
si ubriacava di noia perche'
sotto la vecchia sequoia
ballava il samba cantava con me
DO SOL7
....
DO SOL7
un urlatore alla radio
in un armadio trovava il suo swoh
temeva questa puntata
e chiuso tutta l'estate resto'
DO
...

E quando tramonta il sol
una canzone d'amor
da bahia salvator
per te cantero'
na na na na na
na na na na na
na na na na na
DO
ahi Maria portica sare' ...

e------0-1-3-1-0--
B--1-3------------DO FA SOL* DO* LAm* REm* SOL* DO*
(x2)
DO
Cantarevolare
ADMINISTRATOR
PROFILE


Posts Carousel

Leave a Comment

Your email address will not be published. Required fields are marked with *

Cancel reply

Latest Posts

Top Authors

Most Commented

Featured Videos