Il Regalo Più Grande Tiziano Ferro Testo Accordi

Il Regalo Più Grande Tiziano Ferro Testo Accordi

INTRO: SIsus e—————–|—————–|—————–|—————–| B——0———-|——0———-|——0———-|——0———-| G———4——-|———4——-|———4——-|———4——-| D—-4——4/6—|—-4——4—–|—-4——4/6—|—-4——4—–| A-2—————|-2—————|-2—————|-2—————| E—————–|—————–|—————–|—————–| MIadd9 Voglio farti un regalo, qualcosa di dolce e—————–|—————–| B——0———-|——0———-| G———4——-|———4——-| D—-4——4/6—|—-4——4—–| A—————–|—————–| E-0—————|-0—————| SIsus qualcosa di raro, eh eh eh eh eh e—————–|—————–| B——0———-|——0———-| G———4——-|———4——-| D—-4——4/6—|—-4——4—–| A-2—————|-2—————| E—————–|—————–| MIadd9 non un comune regalo, di quelli che hai perso mai aperto o lasciato in treno e—————–|—————–| B——0———-|——0———-|

INTRO:
SIsus
e-----------------|-----------------|-----------------|-----------------|
B------0----------|------0----------|------0----------|------0----------|
G---------4-------|---------4-------|---------4-------|---------4-------|
D----4------4/6---|----4------4-----|----4------4/6---|----4------4-----|
A-2---------------|-2---------------|-2---------------|-2---------------|
E-----------------|-----------------|-----------------|-----------------|

MIadd9
Voglio farti un regalo, qualcosa di dolce
e-----------------|-----------------|
B------0----------|------0----------|
G---------4-------|---------4-------|
D----4------4/6---|----4------4-----|
A-----------------|-----------------|
E-0---------------|-0---------------|

SIsus
qualcosa di        raro, eh eh eh eh eh
e-----------------|-----------------|
B------0----------|------0----------|
G---------4-------|---------4-------|
D----4------4/6---|----4------4-----|
A-2---------------|-2---------------|
E-----------------|-----------------|

MIadd9
non un comune regalo, di quelli che hai perso
mai aperto o lasciato in treno
e-----------------|-----------------|
B------0----------|------0----------|
G---------4-------|---------4-------|
D----4------4/6---|----4------4-----|
A-----------------|-----------------|
E-0---------------|-0---------------|

SIsus       FA#sus4 - FA#
o mai accettato, eh eh eh eh eh
e-----------------|-----------------|
B------0----------|-----------------|
G---------4-------|------4----3-----|
D----4------4/6---|-----------------|
A-2---------------|----4----4-------|
E-----------------|-2---------------|

DO#m7                         FA#
di quelli che apri e poi piangi, che sei contenta e non fingi
e(0)-----------(0)-------------|-----------------|
B-----------0-----(4)-(2)-(0)--|-----------------|   (*) = 2° chitarra
G------6-----------------------|------4----3-----|
D----6----6--------------------|-----------------|
A-4----------------------------|----4----4-------|
E------------------------------|-2---------------|

DO#m7              FA#
in questo giorno di metà settembre, ti dedicherò
e(0)-----------(0)------------|-----------------|
B-----------0-----(4)-(2)-(0)-|-----------------|
G------6----------------------|------4----3-----|
D----6----6-------------------|-----------------|
A-4---------------------------|----4----4-------|
E-----------------------------|-2---------------|

SI
il regalo mio più grande

SI                                          SI7+
Vorrei donare il tuo sorriso alla luna perchè
SI
di notte chi la guarda possa pensare a te
per ricordarti che il mio amore è importante
FA#                                       DO#m7
che non importa ciò che dice la gente perchè
tu mi hai protetto con la tua gelosia che anche
FA#
che molto stanco il tuo sorriso non andava via
DO#m7
devo partire però so nel cuore
FA#sus4     FA#
la tua presenza
SI
è sempre arrivo e mai partenza
/LA#      SOL#m
regalo mio piu' grande
FA#        MI
regalo mio più grande
FA#                    SI
eh eh eh eh eh eh eh eh eh...

MIadd9
Vorrei mi facessi un regalo, un sogno inespresso
SIsus       FA#sus4 - FA#
donarmelo adesso, eh eh eh eh eh
DO#m7                     FA#sus4 - FA#
di quelli che non so aprire, di fronte ad altra gente
DO#m7        FA#sus4 - FA#
perchè il regalo più grande,
SI
oh...è solo nostro per sempre

SI                                          SI7+
Vorrei donare il tuo sorriso alla luna perchè
SI
di notte chi la guarda possa pensare a te
per ricordarti che il mio amore e' importante
FA#                                       DO#m7
che non importa ciò che dice la gente perchè
tu mi hai protetto con la tua gelosia che anche
FA#
che molto stanco il tuo sorriso non andava via
DO#m7
devo partire però so nel cuore
FA#sus4     FA#
la tua presenza
è sempre arrivo e mai

SI                                   /LA#
e se arrivasse ora la fine che sia in un burrone
SOL#m                            FA#
non per volermi odiare solo per voler volare
MI                 FA#
e se ti nega tutto quest'estrema agonia
SI
e se ti nega anche la vita respira la mia
/LA#
e stavo attento a non amare prima di incontrarti
SOL#m                            FA#
e confondevo la mia vita con quella degli altri
MI                        FA#
non voglio farmi piu' del male adesso
SI
l'amore...amore...

(BRIDGE+1)
DO                                /SI       LAm
Vorrei donare il tuo sorriso alla luna perchè
/SOL      FA
di notte chi la guarda possa pensare a te
SOL
per ricordarti che il mio amore e' importante
DO
che non importa cio' che dice la gente e poi
/SI        LAm
l'amore dato amore preso amore mai reso
/SOL          FA
amore grande come il tempo che non si è arreso
SOL
amore che mi parla coi tuoi occhi qui di fronte
sei tu sei tu sei tu sei tu
FA   SOL
sei tu sei tu sei tu sei tu
DO
ah il regalo mio piu' grande
Cantarevolare
ADMINISTRATOR
PROFILE


Posts Carousel

Leave a Comment

Your email address will not be published. Required fields are marked with *

Cancel reply

Latest Posts

Top Authors

Most Commented

Featured Videos